  0
SECTION
  2
HEADER
  9
$ACADVER
  1
AC1009
  9
$INSBASE
 10
44.68055161055727
 20
169.5504862361001
 30
0.0
  9
$EXTMIN
 10
44.68055161055727
 20
169.5504862361001
 30
0.0
  9
$EXTMAX
 10
171.9330058848597
 20
195.0504862361001
 30
0.0
  9
$LIMMIN
 10
0.0
 20
0.0
  9
$LIMMAX
 10
210.0
 20
297.0
  9
$ORTHOMODE
 70
     1
  9
$REGENMODE
 70
     0
  9
$FILLMODE
 70
     1
  9
$QTEXTMODE
 70
     0
  9
$MIRRTEXT
 70
     0
  9
$DRAGMODE
 70
     2
  9
$LTSCALE
 40
1.0
  9
$OSMODE
 70
     0
  9
$ATTMODE
 70
     2
  9
$TEXTSIZE
 40
2.0
  9
$TRACEWID
 40
0.1
  9
$TEXTSTYLE
  7
STANDARD
  9
$CLAYER
  8
ITEM_50
  9
$CELTYPE
  6
BYLAYER
  9
$CECOLOR
 62
   256
  9
$DIMSCALE
 40
1.0
  9
$DIMASZ
 40
2.5
  9
$DIMEXO
 40
1.0
  9
$DIMDLI
 40
8.0
  9
$DIMRND
 40
0.0
  9
$DIMDLE
 40
0.0
  9
$DIMEXE
 40
2.0
  9
$DIMTP
 40
0.1
  9
$DIMTM
 40
0.1
  9
$DIMTXT
 40
3.5
  9
$DIMCEN
 40
2.0
  9
$DIMTSZ
 40
0.0
  9
$DIMTOL
 70
     0
  9
$DIMLIM
 70
     0
  9
$DIMTIH
 70
     0
  9
$DIMTOH
 70
     0
  9
$DIMSE1
 70
     0
  9
$DIMSE2
 70
     0
  9
$DIMTAD
 70
     1
  9
$DIMZIN
 70
     8
  9
$DIMBLK
  1

  9
$DIMASO
 70
     1
  9
$DIMSHO
 70
     1
  9
$DIMPOST
  1

  9
$DIMAPOST
  1

  9
$DIMALT
 70
     0
  9
$DIMALTD
 70
     2
  9
$DIMALTF
 40
25.39999999999999
  9
$DIMLFAC
 40
1.0
  9
$DIMTOFL
 70
     1
  9
$DIMTVP
 40
0.0
  9
$DIMTIX
 70
     0
  9
$DIMSOXD
 70
     0
  9
$DIMSAH
 70
     0
  9
$DIMBLK1
  1

  9
$DIMBLK2
  1

  9
$DIMSTYLE
  2
*UNNAMED
  9
$DIMCLRD
 70
   256
  9
$DIMCLRE
 70
   256
  9
$DIMCLRT
 70
     2
  9
$DIMTFAC
 40
0.71
  9
$DIMGAP
 40
1.5
  9
$LUNITS
 70
     2
  9
$LUPREC
 70
     3
  9
$SKETCHINC
 40
0.1
  9
$FILLETRAD
 40
2.5
  9
$AUNITS
 70
     0
  9
$AUPREC
 70
     1
  9
$MENU
  1

  9
$ELEVATION
 40
0.0
  9
$PELEVATION
 40
0.0
  9
$THICKNESS
 40
0.0
  9
$LIMCHECK
 70
     0
  9
$BLIPMODE
 70
     0
  9
$CHAMFERA
 40
2.5
  9
$CHAMFERB
 40
2.5
  9
$SKPOLY
 70
     1
  9
$TDCREATE
 40
2449371.426176620
  9
$TDUPDATE
 40
2449394.634952662
  9
$TDINDWG
 40
0.0055854167
  9
$TDUSRTIMER
 40
0.0055854167
  9
$USRTIMER
 70
     1
  9
$ANGBASE
 50
0.0
  9
$ANGDIR
 70
     0
  9
$PDMODE
 70
     3
  9
$PDSIZE
 40
0.0
  9
$PLINEWID
 40
0.0
  9
$COORDS
 70
     2
  9
$SPLFRAME
 70
     0
  9
$SPLINETYPE
 70
     6
  9
$SPLINESEGS
 70
     8
  9
$ATTDIA
 70
     1
  9
$ATTREQ
 70
     1
  9
$HANDLING
 70
     0
  9
$HANDSEED
  5
967D32F
  9
$SURFTAB1
 70
     6
  9
$SURFTAB2
 70
     6
  9
$SURFTYPE
 70
     6
  9
$SURFU
 70
     6
  9
$SURFV
 70
     6
  9
$UCSNAME
  2

  9
$UCSORG
 10
0.0
 20
0.0
 30
0.0
  9
$UCSXDIR
 10
1.0
 20
0.0
 30
0.0
  9
$UCSYDIR
 10
0.0
 20
1.0
 30
0.0
  9
$PUCSNAME
  2

  9
$PUCSORG
 10
0.0
 20
0.0
 30
0.0
  9
$PUCSXDIR
 10
1.0
 20
0.0
 30
0.0
  9
$PUCSYDIR
 10
0.0
 20
1.0
 30
0.0
  9
$USERI1
 70
     0
  9
$USERI2
 70
     3
  9
$USERI3
 70
    15
  9
$USERI4
 70
     0
  9
$USERI5
 70
     0
  9
$USERR1
 40
1.0
  9
$USERR2
 40
1.0
  9
$USERR3
 40
0.0
  9
$USERR4
 40
1.0
  9
$USERR5
 40
0.0
  9
$WORLDVIEW
 70
     5
  9
$SHADEDGE
 70
     3
  9
$SHADEDIF
 70
    70
  9
$TILEMODE
 70
     1
  9
$MAXACTVP
 70
     4
  9
$PINSBASE
 10
9.894451402566197E+73
 20
0.0
 30
0.0
  9
$PLIMCHECK
 70
     0
  9
$PEXTMIN
 10
1.000000000000000E+20
 20
1.000000000000000E+20
 30
1.000000000000000E+20
  9
$PEXTMAX
 10
-1.000000000000000E+20
 20
-1.000000000000000E+20
 30
-1.000000000000000E+20
  9
$PLIMMIN
 10
0.0
 20
0.0
  9
$PLIMMAX
 10
420.0
 20
297.0
  9
$UNITMODE
 70
     0
  9
$VISRETAIN
 70
     0
  9
$PLINEGEN
 70
     0
  9
$PSLTSCALE
 70
     0
  9
$TREEDEPTH
 70
  3020
  9
$DWGCODEPAGE
  3
undefined
  0
ENDSEC
  0
SECTION
  2
TABLES
  0
TABLE
  2
VPORT
 70
     2
  0
VPORT
  2
*ACTIVE
 70
     0
 10
0.0
 20
0.0
 11
1.0
 21
1.0
 12
108.3067787477085
 22
219.42697784785
 13
0.0
 23
0.0
 14
1.0
 24
1.0
 15
10.0
 25
10.0
 16
0.0
 26
0.0
 36
1.0
 17
0.0
 27
0.0
 37
0.0
 40
99.75298322349983
 41
1.275675675675675
 42
50.0
 43
0.0
 44
0.0
 50
0.0
 51
0.0
 71
     0
 72
   100
 73
     1
 74
     0
 75
     0
 76
     0
 77
     0
 78
     0
  0
ENDTAB
  0
TABLE
  2
LTYPE
 70
     1
  0
LTYPE
  2
CONTINUOUS
 70
    64
  3
Solid line
 72
    65
 73
     0
 40
0.0
  0
ENDTAB
  0
TABLE
  2
LAYER
 70
     4
  0
LAYER
  2
0
 70
     0
 62
     7
  6
CONTINUOUS
  0
LAYER
  2
ITEM_50
 70
    64
 62
     7
  6
CONTINUOUS
  0
LAYER
  2
ITEM_HILFE
 70
    64
 62
     3
  6
CONTINUOUS
  0
LAYER
  2
4AN
 70
     0
 62
     3
  6
CONTINUOUS
  0
ENDTAB
  0
TABLE
  2
STYLE
 70
     1
  0
STYLE
  2
STANDARD
 70
     0
 40
0.0
 41
1.0
 50
0.0
 71
     0
 42
2.0
  3
GENISO
  4

  0
ENDTAB
  0
TABLE
  2
VIEW
 70
     0
  0
ENDTAB
  0
TABLE
  2
UCS
 70
     0
  0
ENDTAB
  0
TABLE
  2
APPID
 70
     1
  0
APPID
  2
ACAD
 70
    64
  0
ENDTAB
  0
TABLE
  2
DIMSTYLE
 70
     0
  0
ENDTAB
  0
ENDSEC
  0
SECTION
  2
BLOCKS
  0
ENDSEC
  0
SECTION
  2
ENTITIES
  0
POINT
  8
ITEM_HILFE
 10
89.68055161055727
 20
182.3004862361001
 30
0.0
  0
LINE
  8
ITEM_50
 10
104.6305516105573
 20
175.3004862362021
 30
0.0
 11
104.6305516105573
 21
175.7004862361001
 31
0.0
  0
LINE
  8
ITEM_50
 10
104.6305516105573
 20
175.7004862361001
 30
0.0
 11
104.6805516105572
 21
175.7004862361001
 31
0.0
  0
LINE
  8
ITEM_50
 10
104.6305516105573
 20
177.8134824783628
 30
0.0
 11
104.6805516105572
 21
177.8134824783628
 31
0.0
  0
LINE
  8
ITEM_50
 10
104.6305516105573
 20
180.4115586897801
 30
0.0
 11
104.6805516105572
 21
180.4115586897801
 31
0.0
  0
LINE
  8
ITEM_50
 10
104.6305516105573
 20
177.5827495478844
 30
0.0
 11
104.6305516105573
 21
180.4115586897801
 31
0.0
  0
LINE
  8
ITEM_50
 10
104.6305516105573
 20
187.0182229243158
 30
0.0
 11
104.6305516105573
 21
184.1894137824202
 31
0.0
  0
LINE
  8
ITEM_50
 10
104.6305516105573
 20
184.1894137824202
 30
0.0
 11
104.6805516105572
 21
184.1894137824202
 31
0.0
  0
LINE
  8
ITEM_50
 10
104.6305516105573
 20
186.7874899938374
 30
0.0
 11
104.6805516105572
 21
186.7874899938374
 31
0.0
  0
LINE
  8
ITEM_50
 10
104.6305516105573
 20
188.9004862361001
 30
0.0
 11
104.6805516105572
 21
188.9004862361001
 31
0.0
  0
LINE
  8
ITEM_50
 10
104.6305516105573
 20
189.3004862359981
 30
0.0
 11
104.6305516105573
 21
188.9004862361001
 31
0.0
  0
LINE
  8
ITEM_50
 10
104.6805516105572
 20
190.3504862361
 30
0.0
 11
105.8805516105572
 21
190.3504862361
 31
0.0
  0
LINE
  8
ITEM_50
 10
104.6805516105572
 20
174.2504862361001
 30
0.0
 11
105.8805516105572
 21
174.2504862361001
 31
0.0
  0
LINE
  8
ITEM_50
 10
104.6805516105572
 20
190.3504862361
 30
0.0
 11
104.6805516105572
 21
174.2504862361001
 31
0.0
  0
LINE
  8
ITEM_50
 10
117.8805516105573
 20
175.4630890706746
 30
0.0
 11
133.5258510722368
 21
175.4630890706746
 31
0.0
  0
LINE
  8
ITEM_50
 10
117.8805516105573
 20
175.3004862362019
 30
0.0
 11
133.5258510722368
 21
175.300486236202
 31
0.0
  0
LINE
  8
ITEM_50
 10
117.8805516105573
 20
177.0089836140528
 30
0.0
 11
134.3918764759623
 21
177.0089836140529
 31
0.0
  0
LINE
  8
ITEM_50
 10
117.8805516105573
 20
177.5827495478842
 30
0.0
 11
133.5258510722368
 21
177.5827495478843
 31
0.0
  0
LINE
  8
ITEM_50
 10
117.8805516105573
 20
180.1808257592973
 30
0.0
 11
133.5258510722368
 21
180.1808257592973
 31
0.0
  0
LINE
  8
ITEM_50
 10
117.8805516105573
 20
180.9537730310626
 30
0.0
 11
134.3918764759623
 21
180.9537730310626
 31
0.0
  0
LINE
  8
ITEM_50
 10
117.8805516105573
 20
183.6471994411376
 30
0.0
 11
134.3918764759623
 21
183.6471994411376
 31
0.0
  0
LINE
  8
ITEM_50
 10
117.8805516105573
 20
184.4201467129028
 30
0.0
 11
133.5258510722368
 21
184.4201467129028
 31
0.0
  0
LINE
  8
ITEM_50
 10
117.8805516105573
 20
187.0182229243158
 30
0.0
 11
133.5258510722368
 21
187.0182229243158
 31
0.0
  0
LINE
  8
ITEM_50
 10
117.8805516105573
 20
187.5919888581473
 30
0.0
 11
134.3918764759623
 21
187.5919888581473
 31
0.0
  0
LINE
  8
ITEM_50
 10
117.8805516105573
 20
189.3004862359981
 30
0.0
 11
133.5258510722368
 21
189.3004862359981
 31
0.0
  0
LINE
  8
ITEM_50
 10
117.8805516105573
 20
189.1378834015256
 30
0.0
 11
133.5258510722368
 21
189.1378834015256
 31
0.0
  0
LINE
  8
ITEM_50
 10
134.6805516105572
 20
177.3004862361001
 30
0.0
 11
133.5258510722368
 21
175.300486236202
 31
0.0
  0
LINE
  8
ITEM_50
 10
134.3918764759623
 20
180.9537730310626
 30
0.0
 11
134.3918764759623
 21
182.3004862366422
 31
0.0
  0
LINE
  8
ITEM_50
 10
134.3918764759623
 20
180.9537730310626
 30
0.0
 11
133.5258510722368
 21
180.1808257592974
 31
0.0
  0
LINE
  8
ITEM_50
 10
133.5258510722368
 20
177.5827495478844
 30
0.0
 11
133.5258510722368
 21
180.1808257592974
 31
0.0
  0
LINE
  8
ITEM_50
 10
133.5258510722368
 20
177.5827495478844
 30
0.0
 11
134.3918764759623
 21
178.3556968196323
 31
0.0
  0
LINE
  8
ITEM_50
 10
134.3918764759623
 20
177.0089836140529
 30
0.0
 11
134.3918764759623
 21
178.3556968196323
 31
0.0
  0
LINE
  8
ITEM_50
 10
133.5258510722368
 20
175.3004862362021
 30
0.0
 11
133.5258510722368
 21
175.4630890706746
 31
0.0
  0
LINE
  8
ITEM_50
 10
134.3918764759623
 20
177.0089836140529
 30
0.0
 11
133.5258510722368
 21
175.4630890706746
 31
0.0
  0
LINE
  8
ITEM_50
 10
134.3918764759623
 20
183.6471994411376
 30
0.0
 11
133.5258510722368
 21
184.4201467129028
 31
0.0
  0
LINE
  8
ITEM_50
 10
134.3918764759623
 20
183.6471994411376
 30
0.0
 11
134.3918764759623
 21
182.300486235558
 31
0.0
  0
LINE
  8
ITEM_50
 10
133.5258510722368
 20
187.0182229243158
 30
0.0
 11
134.3918764759623
 21
186.2452756525678
 31
0.0
  0
LINE
  8
ITEM_50
 10
134.3918764759623
 20
187.5919888581473
 30
0.0
 11
133.5258510722368
 21
189.1378834015256
 31
0.0
  0
LINE
  8
ITEM_50
 10
133.5258510722368
 20
189.3004862359981
 30
0.0
 11
133.5258510722368
 21
189.1378834015256
 31
0.0
  0
LINE
  8
ITEM_50
 10
134.3918764759623
 20
187.5919888581473
 30
0.0
 11
134.3918764759623
 21
186.2452756525678
 31
0.0
  0
LINE
  8
ITEM_50
 10
133.5258510722368
 20
187.0182229243158
 30
0.0
 11
133.5258510722368
 21
184.4201467129028
 31
0.0
  0
LINE
  8
ITEM_50
 10
134.6805516105572
 20
187.3004862361001
 30
0.0
 11
133.5258510722368
 21
189.3004862359981
 31
0.0
  0
LINE
  8
ITEM_50
 10
134.6805516105572
 20
177.3004862361001
 30
0.0
 11
134.6805516105572
 21
187.3004862361001
 31
0.0
  0
ARC
  8
ITEM_50
 10
115.8805516105573
 20
172.9004862361001
 30
0.0
 40
2.0
 50
270.0
 51
0.0
  0
ARC
  8
ITEM_50
 10
115.8805516105573
 20
191.7004862361001
 30
0.0
 40
2.0
 50
0.0
 51
89.9999999999999
  0
LINE
  8
ITEM_50
 10
105.8805516105572
 20
172.5504862361001
 30
0.0
 11
105.8805516105573
 21
195.0504862361001
 31
0.0
  0
LINE
  8
ITEM_50
 10
107.8805516105573
 20
169.5504862361001
 30
0.0
 11
107.8805516105573
 21
195.0504862361001
 31
0.0
  0
LINE
  8
ITEM_50
 10
105.8805516105573
 20
169.5504862361001
 30
0.0
 11
105.8805516105573
 21
172.5504862361001
 31
0.0
  0
LINE
  8
ITEM_50
 10
117.8805516105573
 20
191.7004862361001
 30
0.0
 11
117.8805516105573
 21
172.9004862361001
 31
0.0
  0
LINE
  8
ITEM_50
 10
107.8805516105573
 20
193.7004862361002
 30
0.0
 11
115.8805516105573
 21
193.7004862361001
 31
0.0
  0
LINE
  8
ITEM_50
 10
115.8805516105573
 20
170.9004862361001
 30
0.0
 11
107.8805516105573
 21
170.9004862361001
 31
0.0
  0
LINE
  8
ITEM_50
 10
105.8805516105573
 20
195.0504862361001
 30
0.0
 11
107.8805516105573
 21
195.0504862361001
 31
0.0
  0
LINE
  8
ITEM_50
 10
105.8805516105573
 20
169.5504862361001
 30
0.0
 11
107.8805516105573
 21
169.5504862361001
 31
0.0
  0
LINE
  8
ITEM_50
 10
105.8805516105573
 20
189.3004862362021
 30
0.0
 11
105.8805516105573
 21
175.3004862362021
 31
0.0
  0
LINE
  8
ITEM_50
 10
73.48055161055722
 20
189.3004862362021
 30
0.0
 11
73.48055161055722
 21
175.3004862362021
 31
0.0
  0
LINE
  8
ITEM_50
 10
104.6805516105572
 20
177.0089836140529
 30
0.0
 11
74.68055161055725
 21
177.0089836140529
 31
0.0
  0
LINE
  8
ITEM_50
 10
104.6805516105572
 20
187.5919888581474
 30
0.0
 11
74.68055161055727
 21
187.5919888581474
 31
0.0
  0
LINE
  8
ITEM_50
 10
104.6805516105572
 20
180.9537730310626
 30
0.0
 11
74.68055161055727
 21
180.9537730310626
 31
0.0
  0
LINE
  8
ITEM_50
 10
104.6305516105573
 20
180.1808257592975
 30
0.0
 11
74.73055161055722
 21
180.1808257592974
 31
0.0
  0
LINE
  8
ITEM_50
 10
104.6305516105573
 20
177.5827495478844
 30
0.0
 11
74.73055161055722
 21
177.5827495478843
 31
0.0
  0
LINE
  8
ITEM_50
 10
104.6305516105573
 20
175.4630890706746
 30
0.0
 11
74.73055161055722
 21
175.4630890706746
 31
0.0
  0
LINE
  8
ITEM_50
 10
104.6305516105573
 20
189.1378834015257
 30
0.0
 11
74.73055161055724
 21
189.1378834015257
 31
0.0
  0
LINE
  8
ITEM_50
 10
104.6305516105573
 20
187.0182229243157
 30
0.0
 11
74.73055161055722
 21
187.0182229243159
 31
0.0
  0
LINE
  8
ITEM_50
 10
104.6305516105573
 20
184.4201467129027
 30
0.0
 11
74.73055161055722
 21
184.4201467129029
 31
0.0
  0
LINE
  8
ITEM_50
 10
104.6805516105572
 20
183.6471994411376
 30
0.0
 11
74.68055161055727
 21
183.6471994411376
 31
0.0
  0
LINE
  8
ITEM_50
 10
104.6305516105573
 20
175.3004862362021
 30
0.0
 11
74.73055161055722
 21
175.3004862362021
 31
0.0
  0
LINE
  8
ITEM_50
 10
104.6305516105573
 20
189.3004862359982
 30
0.0
 11
74.73055161055724
 21
189.3004862359982
 31
0.0
  0
LINE
  8
ITEM_50
 10
73.48055161055722
 20
169.5504862361001
 30
0.0
 11
71.48055161055722
 21
169.5504862361001
 31
0.0
  0
LINE
  8
ITEM_50
 10
73.48055161055722
 20
195.0504862361001
 30
0.0
 11
71.48055161055722
 21
195.0504862361001
 31
0.0
  0
LINE
  8
ITEM_50
 10
63.48055161055722
 20
170.9004862361001
 30
0.0
 11
71.48055161055722
 21
170.9004862361001
 31
0.0
  0
LINE
  8
ITEM_50
 10
71.48055161055722
 20
193.7004862361002
 30
0.0
 11
63.48055161055722
 21
193.7004862361001
 31
0.0
  0
LINE
  8
ITEM_50
 10
61.48055161055722
 20
191.7004862361001
 30
0.0
 11
61.48055161055722
 21
172.9004862361001
 31
0.0
  0
LINE
  8
ITEM_50
 10
73.48055161055722
 20
169.5504862361001
 30
0.0
 11
73.48055161055722
 21
172.5504862361001
 31
0.0
  0
LINE
  8
ITEM_50
 10
71.48055161055722
 20
169.5504862361001
 30
0.0
 11
71.48055161055722
 21
195.0504862361001
 31
0.0
  0
LINE
  8
ITEM_50
 10
73.48055161055734
 20
172.5504862361001
 30
0.0
 11
73.48055161055722
 21
195.0504862361001
 31
0.0
  0
ARC
  8
ITEM_50
 10
63.48055161055722
 20
191.7004862361001
 30
0.0
 40
2.0
 50
90.00000000000009
 51
180.0
  0
ARC
  8
ITEM_50
 10
63.48055161055722
 20
172.9004862361001
 30
0.0
 40
2.0
 50
180.0
 51
270.0
  0
CIRCLE
  8
ITEM_50
 10
159.1830058848597
 20
182.3004862361001
 30
0.0
 40
12.75
  0
CIRCLE
  8
ITEM_50
 10
159.1830058848597
 20
182.3004862361001
 30
0.0
 40
11.4
  0
LINE
  8
ITEM_50
 10
44.68055161055727
 20
177.3004862361001
 30
0.0
 11
44.68055161055727
 21
187.3004862361001
 31
0.0
  0
LINE
  8
ITEM_50
 10
44.68055161055727
 20
187.3004862361001
 30
0.0
 11
45.83525214887768
 21
189.3004862359981
 31
0.0
  0
LINE
  8
ITEM_50
 10
45.83525214887768
 20
187.0182229243158
 30
0.0
 11
45.83525214887768
 21
184.4201467129028
 31
0.0
  0
LINE
  8
ITEM_50
 10
44.96922674515215
 20
187.5919888581473
 30
0.0
 11
44.96922674515215
 21
186.2452756525678
 31
0.0
  0
LINE
  8
ITEM_50
 10
45.83525214887768
 20
189.3004862359981
 30
0.0
 11
45.83525214887768
 21
189.1378834015256
 31
0.0
  0
LINE
  8
ITEM_50
 10
44.96922674515215
 20
187.5919888581473
 30
0.0
 11
45.83525214887768
 21
189.1378834015256
 31
0.0
  0
LINE
  8
ITEM_50
 10
45.83525214887768
 20
187.0182229243158
 30
0.0
 11
44.96922674515215
 21
186.2452756525678
 31
0.0
  0
LINE
  8
ITEM_50
 10
44.96922674515215
 20
183.6471994411376
 30
0.0
 11
44.96922674515215
 21
182.300486235558
 31
0.0
  0
LINE
  8
ITEM_50
 10
44.96922674515215
 20
183.6471994411376
 30
0.0
 11
45.83525214887768
 21
184.4201467129028
 31
0.0
  0
LINE
  8
ITEM_50
 10
44.96922674515215
 20
177.0089836140529
 30
0.0
 11
45.83525214887768
 21
175.4630890706746
 31
0.0
  0
LINE
  8
ITEM_50
 10
45.83525214887768
 20
175.3004862362021
 30
0.0
 11
45.83525214887768
 21
175.4630890706746
 31
0.0
  0
LINE
  8
ITEM_50
 10
44.96922674515215
 20
177.0089836140529
 30
0.0
 11
44.96922674515215
 21
178.3556968196323
 31
0.0
  0
LINE
  8
ITEM_50
 10
45.83525214887768
 20
177.5827495478844
 30
0.0
 11
44.96922674515215
 21
178.3556968196323
 31
0.0
  0
LINE
  8
ITEM_50
 10
45.83525214887768
 20
177.5827495478844
 30
0.0
 11
45.83525214887768
 21
180.1808257592974
 31
0.0
  0
LINE
  8
ITEM_50
 10
44.96922674515215
 20
180.9537730310626
 30
0.0
 11
45.83525214887768
 21
180.1808257592974
 31
0.0
  0
LINE
  8
ITEM_50
 10
44.96922674515215
 20
180.9537730310626
 30
0.0
 11
44.96922674515215
 21
182.3004862366422
 31
0.0
  0
LINE
  8
ITEM_50
 10
44.68055161055727
 20
177.3004862361001
 30
0.0
 11
45.83525214887768
 21
175.300486236202
 31
0.0
  0
LINE
  8
ITEM_50
 10
61.48055161055722
 20
189.1378834015256
 30
0.0
 11
45.83525214887768
 21
189.1378834015256
 31
0.0
  0
LINE
  8
ITEM_50
 10
61.48055161055724
 20
189.3004862359981
 30
0.0
 11
45.83525214887768
 21
189.3004862359981
 31
0.0
  0
LINE
  8
ITEM_50
 10
61.48055161055724
 20
187.5919888581473
 30
0.0
 11
44.96922674515215
 21
187.5919888581473
 31
0.0
  0
LINE
  8
ITEM_50
 10
61.48055161055722
 20
187.0182229243158
 30
0.0
 11
45.83525214887768
 21
187.0182229243158
 31
0.0
  0
LINE
  8
ITEM_50
 10
61.48055161055722
 20
184.4201467129028
 30
0.0
 11
45.83525214887768
 21
184.4201467129028
 31
0.0
  0
LINE
  8
ITEM_50
 10
61.48055161055722
 20
183.6471994411376
 30
0.0
 11
44.96922674515215
 21
183.6471994411376
 31
0.0
  0
LINE
  8
ITEM_50
 10
61.48055161055722
 20
180.9537730310626
 30
0.0
 11
44.96922674515215
 21
180.9537730310626
 31
0.0
  0
LINE
  8
ITEM_50
 10
61.48055161055722
 20
180.1808257592973
 30
0.0
 11
45.83525214887768
 21
180.1808257592973
 31
0.0
  0
LINE
  8
ITEM_50
 10
61.48055161055722
 20
177.5827495478842
 30
0.0
 11
45.83525214887768
 21
177.5827495478843
 31
0.0
  0
LINE
  8
ITEM_50
 10
61.48055161055722
 20
177.0089836140528
 30
0.0
 11
44.96922674515215
 21
177.0089836140529
 31
0.0
  0
LINE
  8
ITEM_50
 10
61.48055161055722
 20
175.3004862362019
 30
0.0
 11
45.83525214887768
 21
175.300486236202
 31
0.0
  0
LINE
  8
ITEM_50
 10
61.48055161055722
 20
175.4630890706746
 30
0.0
 11
45.83525214887768
 21
175.4630890706746
 31
0.0
  0
LINE
  8
ITEM_50
 10
157.683005884591
 20
188.7781816195592
 30
0.0
 11
157.683005884591
 21
189.1378834015065
 31
0.0
  0
LINE
  8
ITEM_50
 10
154.3231571249411
 20
186.8383720331182
 30
0.0
 11
154.0116462436014
 21
187.0182229243152
 31
0.0
  0
LINE
  8
ITEM_50
 10
154.3668132900863
 20
186.8131671344199
 30
0.0
 11
154.3231571249411
 21
186.8383720331182
 31
0.0
  0
LINE
  8
ITEM_50
 10
157.683005884591
 20
188.7277718217262
 30
0.0
 11
157.683005884591
 21
188.7781816195592
 31
0.0
  0
LINE
  8
ITEM_50
 10
160.683005884591
 20
188.7277718218512
 30
0.0
 11
160.683005884591
 21
189.1378834016429
 31
0.0
  0
LINE
  8
ITEM_50
 10
163.9991984792548
 20
186.8131671348214
 30
0.0
 11
164.3543655257315
 21
187.0182229247118
 31
0.0
  0
LINE
  8
ITEM_50
 10
165.4991984793628
 20
184.2150909235307
 30
0.0
 11
165.8543655258492
 21
184.4201467134269
 31
0.0
  0
LINE
  8
ITEM_50
 10
165.4991984795224
 20
180.3858815491959
 30
0.0
 11
165.8543655259989
 21
180.1808257593054
 31
0.0
  0
LINE
  8
ITEM_50
 10
163.9991984796304
 20
177.7878053377795
 30
0.0
 11
164.3543655261171
 21
177.5827495478831
 31
0.0
  0
ARC
  8
ITEM_50
 10
159.1830058848588
 20
182.3004862361001
 30
0.0
 40
6.599999999999999
 50
316.8634412154386
 51
316.8634412154485
  0
LINE
  8
ITEM_50
 10
160.6830058851271
 20
175.8732006504742
 30
0.0
 11
160.6830058851271
 21
175.4630890706919
 31
0.0
  0
LINE
  8
ITEM_50
 10
157.6830058851276
 20
175.8732006503488
 30
0.0
 11
157.6830058851276
 21
175.4630890705554
 31
0.0
  0
LINE
  8
ITEM_50
 10
154.3668132904649
 20
177.7878053373764
 30
0.0
 11
154.0116462439889
 21
177.5827495474857
 31
0.0
  0
LINE
  8
ITEM_50
 10
152.8668132903555
 20
180.3858815486665
 30
0.0
 11
152.5116462438707
 21
180.1808257587706
 31
0.0
  0
LINE
  8
ITEM_50
 10
152.8668132901946
 20
184.2150909230031
 30
0.0
 11
152.5116462437192
 21
184.420146712893
 31
0.0
  0
ARC
  8
ITEM_50
 10
159.1830058848588
 20
182.3004862361001
 30
0.0
 40
6.599999999999999
 50
136.8634412154485
 51
136.8634412154487
  0
CIRCLE
  8
ITEM_50
 10
159.1830058848588
 20
182.3004862361001
 30
0.0
 40
5.0
  0
LINE
  8
ITEM_50
 10
160.6830058851271
 20
177.0089836142049
 30
0.0
 11
160.6830058851271
 21
175.8732006504742
 31
0.0
  0
LINE
  8
ITEM_50
 10
157.6830058851276
 20
177.0089836140284
 30
0.0
 11
157.6830058851276
 21
175.8732006503488
 31
0.0
  0
ARC
  8
ITEM_50
 10
159.1830058848588
 20
182.3004862361001
 30
0.0
 40
6.999999999898071
 50
257.6263748858785
 51
282.3736251186577
  0
LINE
  8
ITEM_50
 10
164.5155815797468
 20
180.953773031061
 30
0.0
 11
165.4991984795224
 21
180.3858815491959
 31
0.0
  0
ARC
  8
ITEM_50
 10
159.1830058848574
 20
182.3004862360992
 30
0.0
 40
6.999999999898071
 50
317.6263748858785
 51
342.3736251186577
  0
LINE
  8
ITEM_50
 10
163.0155815798977
 20
178.3556968196196
 30
0.0
 11
163.9991984796304
 21
177.7878053377795
 31
0.0
  0
LINE
  8
ITEM_50
 10
163.015581579478
 20
186.2452756529562
 30
0.0
 11
163.9991984792548
 21
186.8131671348214
 31
0.0
  0
ARC
  8
ITEM_50
 10
159.1830058848597
 20
182.3004862361001
 30
0.0
 40
6.999999999898071
 50
17.6263748858785
 51
42.37362511865781
  0
LINE
  8
ITEM_50
 10
164.5155815796299
 20
183.6471994416904
 30
0.0
 11
165.4991984793628
 21
184.2150909235307
 31
0.0
  0
LINE
  8
ITEM_50
 10
157.683005884591
 20
187.5919888579935
 30
0.0
 11
157.683005884591
 21
188.7277718217262
 31
0.0
  0
ARC
  8
ITEM_50
 10
159.1830058848588
 20
182.3004862361001
 30
0.0
 40
6.999999999898071
 50
77.62637488587854
 51
102.3736251186577
  0
LINE
  8
ITEM_50
 10
160.683005884591
 20
187.5919888581699
 30
0.0
 11
160.683005884591
 21
188.7277718218512
 31
0.0
  0
LINE
  8
ITEM_50
 10
153.8504301899718
 20
183.6471994411374
 30
0.0
 11
152.8668132901946
 21
184.2150909230031
 31
0.0
  0
ARC
  8
ITEM_50
 10
159.1830058848588
 20
182.3004862361001
 30
0.0
 40
6.999999999898071
 50
137.6263748858785
 51
162.3736251186578
  0
LINE
  8
ITEM_50
 10
155.3504301898208
 20
186.2452756525788
 30
0.0
 11
154.3668132900863
 21
186.8131671344199
 31
0.0
  0
LINE
  8
ITEM_50
 10
155.3504301902401
 20
178.3556968192422
 30
0.0
 11
154.3668132904649
 21
177.7878053373764
 31
0.0
  0
ARC
  8
ITEM_50
 10
159.1830058848597
 20
182.3004862361001
 30
0.0
 40
6.999999999898071
 50
197.6263748858784
 51
222.3736251186577
  0
LINE
  8
ITEM_50
 10
153.8504301900882
 20
180.953773030508
 30
0.0
 11
152.8668132903555
 21
180.3858815486665
 31
0.0
  0
ARC
  8
ITEM_50
 10
159.1830058848588
 20
182.3004862361001
 30
0.0
 40
5.499999999847904
 50
285.8266201352372
 51
314.173379870112
  0
ARC
  8
ITEM_50
 10
159.1830058848574
 20
182.3004862360992
 30
0.0
 40
5.499999999847904
 50
345.8266201352371
 51
14.17337987011206
  0
ARC
  8
ITEM_50
 10
159.1830058848597
 20
182.3004862361001
 30
0.0
 40
5.499999999847904
 50
45.82662013523725
 51
74.17337987011214
  0
ARC
  8
ITEM_50
 10
159.1830058848588
 20
182.3004862361001
 30
0.0
 40
5.499999999847904
 50
105.8266201352372
 51
134.1733798701121
  0
ARC
  8
ITEM_50
 10
159.1830058848588
 20
182.3004862361001
 30
0.0
 40
5.499999999847904
 50
165.8266201352372
 51
194.173379870112
  0
ARC
  8
ITEM_50
 10
159.1830058848597
 20
182.3004862361001
 30
0.0
 40
5.499999999847904
 50
225.8266201352372
 51
254.173379870112
  0
POINT
  8
ITEM_HILFE
 10
159.1830058848579
 20
182.3004862360992
 30
0.0
  0
LINE
  8
ITEM_50
 10
74.68055161055727
 20
190.3504862361
 30
0.0
 11
74.68055161055727
 21
174.2504862361001
 31
0.0
  0
LINE
  8
ITEM_50
 10
74.68055161055727
 20
174.2504862361001
 30
0.0
 11
73.48055161055734
 21
174.2504862361001
 31
0.0
  0
LINE
  8
ITEM_50
 10
74.68055161055727
 20
190.3504862361
 30
0.0
 11
73.48055161055734
 21
190.3504862361
 31
0.0
  0
LINE
  8
ITEM_50
 10
74.73055161055722
 20
189.3004862359981
 30
0.0
 11
74.73055161055722
 21
188.9004862361001
 31
0.0
  0
LINE
  8
ITEM_50
 10
74.73055161055722
 20
188.9004862361001
 30
0.0
 11
74.68055161055727
 21
188.9004862361001
 31
0.0
  0
LINE
  8
ITEM_50
 10
74.73055161055722
 20
186.7874899938374
 30
0.0
 11
74.68055161055727
 21
186.7874899938374
 31
0.0
  0
LINE
  8
ITEM_50
 10
74.73055161055722
 20
184.1894137824202
 30
0.0
 11
74.68055161055727
 21
184.1894137824202
 31
0.0
  0
LINE
  8
ITEM_50
 10
74.73055161055722
 20
187.0182229243158
 30
0.0
 11
74.73055161055722
 21
184.1894137824202
 31
0.0
  0
LINE
  8
ITEM_50
 10
74.73055161055722
 20
177.5827495478844
 30
0.0
 11
74.73055161055722
 21
180.4115586897801
 31
0.0
  0
LINE
  8
ITEM_50
 10
74.73055161055722
 20
180.4115586897801
 30
0.0
 11
74.68055161055727
 21
180.4115586897801
 31
0.0
  0
LINE
  8
ITEM_50
 10
74.73055161055722
 20
177.8134824783628
 30
0.0
 11
74.68055161055727
 21
177.8134824783628
 31
0.0
  0
LINE
  8
ITEM_50
 10
74.73055161055722
 20
175.7004862361001
 30
0.0
 11
74.68055161055727
 21
175.7004862361001
 31
0.0
  0
LINE
  8
ITEM_50
 10
74.73055161055722
 20
175.3004862362021
 30
0.0
 11
74.73055161055722
 21
175.7004862361001
 31
0.0
  0
ENDSEC
  0
EOF
